Song

Х

Instrument

Chords

Transpose

				 Shape of You Acoustic
First Live Performance - https://m.youtube.com/watch?v=mcXnpc54zY8


[Intro]

G#m C#m E F#
G#m C#m E F#


[Intro Tab - This is played pretty much all the way throughout the song
Keep chord shape on all the time while playing]

G#m C#m E F#
e|-------4--------------4--------------0--------------2-------|
B|-------4--------------5--------------0--------------2-------|
G|-------4------------6-6----6---------1--------------3-------|
D|-----6-6-----6-----6--6---6-------2--2---2-------4--4-----4-|
A|---6---6---6------4---4--4-------2---2--2------4----4---4---|
E|-4-----4--4-----------4---------0----0-0------2-----2--2----| (x2)


Try this for Verse/Pre-Chorus with Capo 4:
e|----------------------------------------------------------------|
B|-------1---------------1---------------1---------0--------------|
G|-2---------2-----2---------2-----2---------2-----------2--------|
D|-----------------------------------------------------------0----|
A|-0---x---0---x--------------------------------------------------|
E|-----------------0---x---0---x---1---x---1---x---3---x---3---x--|


[Verse 1]

G#m C#m
The club isn't the best place to find a lover
E F#
So the bar is where I go
G#m C#m
Me and my friends at the table doing shots
E F#
Drinking fast and then we talk slow
G#m C#m
Come over and start up a conversation with just me
E F#
And trust me I'll give it a chance now
G#m C#m
Take my hand, stop, Van The Man on the jukebox
E F#
And then we start to dance, and now I'm singing like


[Pre-Chorus]

G#m C#m
Girl, you know I want your love
E F# G#m
Your love was handmade for somebody like me
C#m
Come on now, follow my lead
E F#
I may be crazy, don't mind me, say
G#m C#m
Boy, let's not talk too much
E F# G#m
Grab on my waist and put that body on me
C#m
Come on now, follow my lead
E
Come—come on now, follow my lead


[Chorus]
You can try this Chorus tab.
Keep the chord shape on all the time when playing this

G#m C#m E F#
e|-------4----------4----------0----------2-------|
B|-------4----------5----------0----------2-------|
G|-------4----------6-------1--1-------3--3-------|
D|-------6-------6--6----2-----2----4-----4-------|
A|----6--6----4-----4----------2----------4-------|
E|-4-----4----------4----------0----------2-------| (x8)


[Chorus]

G#m C#m E
I'm in love with the shape of you
F# G#m
We push and pull like a magnet do
C#m E
Although my heart is falling too
F#
I'm in love with your body
G#m C#m E
And last night you were in my room
F# G#m
And now my bedsheets smell like you
C#m E
Every day discovering something brand new
F#
Well I'm in love with your body
G#m C#m E F#
I'm in love with your body
G#m C#m E F#
I'm in love with your body
G#m C#m E F#
I'm in love with your body
G#m C#m E
Every day discovering something brand new
F#
I'm in love with the shape of you


[Verse 2]

G#m C#m
One week in we let the story begin
E F#
We're going out on our first date
G#m C#m
But you and me are thrifty so go all you can eat
E F#
Fill up your bag and I fill up a plate
G#m C#m
We talk for hours and hours about the sweet and the sour
E F#
And how your family is doin' okay
G#m C#m
And leave and get in a taxi, we kiss in the backseat
E F#
Tell the driver make the radio play, and I'm singing like


[Pre-Chorus]

G#m C#m
Girl, you know I want your love
E F# G#m
Your love was handmade for somebody like me
C#m
Come on now, follow my lead
E F#
I may be crazy, don't mind me, say
G#m C#m
Boy, let's not talk too much
E F# G#m
Grab on my waist and put that body on me
C#m
Come on now, follow my lead
E
Come—come on now, follow my lead


[Chorus]

G#m C#m E
I'm in love with the shape of you
F# G#m
We push and pull like a magnet do
C#m E
Although my heart is falling too
F#
I'm in love with your body
G#m C#m E
And last night you were in my room
F# G#m
And now my bedsheets smell like you
C#m E
Every day discovering something brand new
F#
Well I'm in love with your body
G#m C#m E F#
I'm in love with your body
G#m C#m E F#
I'm in love with your body
G#m C#m E F#
I'm in love with your body
G#m C#m E
Every day discovering something brand new
F#
I'm in love with the shape of you


[Bridge]

N.C
Come on, be my baby, come on
N.C
Come on, be my baby, come on
N.C
Come on, be my baby, come on
N.C
Come on, be my baby, come on
G#m C#m
Come on, be my baby, come on
E F#
Come on, be my baby, come on
G#m C#m
Come on, be my baby, come on
E F#
Come on, be my baby, come on


[Chorus]

G#m C#m E
I'm in love with the shape of you
F# G#m
We push and pull like a magnet do
C#m E
Although my heart is falling too
F#
I'm in love with your body
G#m C#m E
And last night you were in my room
F# G#m
And now my bedsheets smell like you
C#m E
Every day discovering something brand new
F#
Well I'm in love with your body
G#m C#m
Come on, be my baby, come on
E F#
Come on, be my baby, come on
G#m C#m
Come on, be my baby, come on
E F#
Come on, be my baby, come on
G#m C#m
Come on, be my baby, come on
E F#
Come on, be my baby, come on
G#m C#m E
Every day discovering something brand new
F#
I'm in love with the shape of you




************************************

| x Dead note
| / Slide up


************************************

Also

Songs New Favorites Chords Tuner