Song

Х

Instrument

Chords

Transpose

				 -----------------------------------------------------------------------------
INVIDIA - Delain
-----------------------------------------------------------------------------
Tabbed by:jpraguiar
Email:jpraguiar@inbox.com


Tuning: STANDARD EADGBe


INTRO 1

e|----------------------------------------------------------------------|
B|----------2---2h3---------------0-----0--------(0) 2nd time ----------|
G|--------4---4----4----------------0-----0----2------------------------| 2X
D|------4------------4---4------0-----0------2--------------------------|
A|----2----------------0------2-----------------------------------------|
E|--------------------------3-------------------------------------------|

INTRO 2

Bm G A, Bm G,A,F#m

Bm G A, Bm G,Bm,A


VERSE

G Bm A
My achievements seem so humble

G Bm A
While you're making wine from water

G Bm A
While my hands work the cold soil

G
All you touch turns into gold

Bm F#m
And I don't want to be like you


CHORUS

Bm
I don't want to be like you

F#m G A
It seems like you outrun me every time

Bm
I wanted to be you

F#m G A
Why can't I erase you from my mind

Dm
I don't want to be like you

C F C
It seems like you outrun me every time

Dm Bb C
I wanted to be you

F C
Why can't I erase you from my mind



INTRO 2 (this line only)

Bm G,A, Bm G,Bm,A


G Bm A
All the heroes in the gutter

G Bm A
Finally get their ever after

G Bm A
As they lay their final glance

G
Upon your ever shining armor

Bm F#m
And I don't want to be like you


CHORUS

Bm
I don't want to be like you

F#m G A
It seems like you outrun me every time

Bm
I wanted to be you

F#m G A
Why can't I erase you from my mind


Dm
I don't want to be like you

C F C
It seems like you outrun me every time

Dm Bb C
I wanted to be you

F C
Why can't I erase you from my mind


Bm, G, Bm, G


F#m
Looking from a distance,

D
the difference seems so small

F#m
Has the grass been greener

D
on the other side at all?



Repeat CHORUS

Bm G,A

=============================================================================
| / slide up
| slide down
| H hammer-on
| p pull-off
| ~ vibrato
| + harmonic
| x Mute note
=============================================================================
Did my best so feel free for any suggestions / corrections. Thx

Www.Delain.nl
=============================================================================

Also

Songs New Favorites Chords Tuner