CHORDS IN THIS SONG

ALPHABET
[add-favorites] [/add-favorites] [del-favorites] [/del-favorites]
Х
			
			 
    Artist: Smokie
Song:Needles and pins
Tab by: Headache

Intro riff

e|--------------------|
H|-2-0-2-0-3-2-0-0-2--|
G|-2-2-2-2-2-2-1-1-2--| 2x
D|-2-2-2-2-2-2-2-2-2--|
A|-0-0-0-0-0-0-2-2-0--|
E|--------------------|

e|-----------------------|
H|-2-0-2-0-3-2-2-2-2-2---|
G|-2-2-2-2-2-2-2-2-2-2---| 2x
D|-2-2-2-2-2-2-2-2-2-2---|
A|-0-0-0-0-0-0-0-0-0-0---|
E|-----------------------|


A
I saw her today
I saw her face
F#m
It was a face I loved
A
And I knew, I had to run away
F#m
And get down on my knees and pray
That they'd go away

e|-----------------------|
H|-2-0-2-0-3-2-2-2-2-2---|
G|-2-2-2-2-2-2-2-2-2-2---| 2x
D|-2-2-2-2-2-2-2-2-2-2---|
A|-0-0-0-0-0-0-0-0-0-0---|
E|-----------------------|


A
And still they begin
F#m
Needles and pins
D
Because of all my pride
E
The tears I'm gonna hide
A
Oh, thought I was smart

I'd won a heart
F#m
Didn't think I do

But now you see
A
She's worse to him and me

Let her go ahead
F#m
take this love instead
And one day she will see

e|-----------------------|
H|-2-0-2-0-3-2-2-2-2-2---|
G|-2-2-2-2-2-2-2-2-2-2---| 2x
D|-2-2-2-2-2-2-2-2-2-2---|
A|-0-0-0-0-0-0-0-0-0-0---|
E|-----------------------|


A
Just how to say "please"
F#m
Get down on her knees
D
Ayeah, that's how they begin
E
She'll feel those needles and pins
E
Hurtin' her, hurtin' her

e|--------------------|
H|--------------------|
G|--------------------|
D|-11-9-7-------------|
A|-11-9-7-------------|
E|-9--7-5-------------|

C# H H A
Why can't I stop and tell myself I'm wrong, I'm wrong, so wrong

e|--------------------|
H|--------------------|
G|--------------------|
D|-11-9-7-------------|
A|-11-9-7-------------|
E|-9--7-5-------------|

A As
Why can't I stand up, and tell myself I'm strong

A
I saw her today

I saw her face
F#m
It was a face I loved
A
And I knew, I had to run away
F#m
And get down on my knees and pray

That they'd go away

e|-----------------------|
H|-2-0-2-0-3-2-2-2-2-2---|
G|-2-2-2-2-2-2-2-2-2-2---| 2x
D|-2-2-2-2-2-2-2-2-2-2---|
A|-0-0-0-0-0-0-0-0-0-0---|
E|-----------------------|


A
And still they begin
F#m
Needles and pins
D
Because of all my pride
E
The tears I'm gonna hide

e|-----------------------|
H|-2-0-2-0-3-2-2-2-2-2---|
G|-2-2-2-2-2-2-2-2-2-2---| 2x
D|-2-2-2-2-2-2-2-2-2-2---|
A|-0-0-0-0-0-0-0-0-0-0---|
E|-----------------------|


Ah, needles and pins
Needles and pins
Needles and pins

ALSO

UKULAND.COM
Songs New Favorites Chords Tuner
© 2019