Song

Х

Instrument

Chords

Transpose

				 ________________
/ /
/ Jason Mraz /
/ Mr. A-Z /
/ (2005) /
/_______________/

I transcribed this album simply because I love it and thinking that this piece
of music should be available to play for as many as possible.
Much of the music can be described as simple chords, so that's what I've
basically done all the way through. But I've of course also included some of the
essential picking patterns, fills and riffs.
If you think any part is missing or if you would just like something typed into
Guitar Pro, I'd love to help you out with that.
In the bottom of the tab I've added the links to the all songs, which I've also
submitted on separately. And all the tabs there include the correct lyrics and a
sweet little comment on the song from my part. ;)
- 30th /September /08

And for question, comments, corrections – just mail me at Maitinin@gmail.com!


1. Life is Wonderful (Jason Mraz)
2. Wordplay (Jason Mraz, Kevin Kadish)
3. Geek in the Pink (Jason Mraz, Ian Sheridan, Kevin Kadish, Scott Storch)
4. Did You Get My Message? (Jason Mraz, Dan Wilson)
5. Mr. Curiosity (Jason Mraz, Dennis Morris, Lester Mendez)
6. Clockwatching (Jason Mraz, Dennis Morris, Ainslie Henderson)
7. Bella Luna (Jason Mraz, Billy "Bushwalla" Galewood)
8. Plane (Jason Mraz, Dennis Morris)
9. O. Lover (Jason Mraz, Dennis Morris)
10. Please Don't Tell Her (Jason Mraz, Eric Hinojosa)
11. The Forecast (Jason Mraz, Eric Hinojosa)
12. Song for a Friend (Jason Mraz, Dan Wilson, Dennis Morris, Eric Hinojosa)


--------------------------------------------------------------------------------
Also check out my album transcription of Waiting for My Rocket to Come:
www.ultimate-guitar.com/tabs/j/jason_mraz/waiting_for_my_rocket_to_come_album_crd.htm
------------------------------------------------------------------------------



" Maitinin writing here - the author of this tab.

The past 11 years, I have generated 10,318,000 views and 815 top-rated tabs for this site.
If you want to support an eager contributor like me, check out my own site:


_____ http://www.PlayLikeTheGreats.com _____


Here I will continue to upload and improve my transcriptions.

Best regards,
Maitinin

July, 2015 "



********************************************************************************

1. _____________________
/ Jason Mraz /
/ Life is Wonderful /
/____________________/

Capo on 2nd fret.
First is the actual name of the chord,
and below in the brackets is the name of the chord without capo:

G#m C#m E Em B F# F#/A#
(F#m) (Bm) (D) (Dm) (A) (E) (E/G#)
e:---2-----2----2----1----0----0------0----:
B:---2-----3----3----3----2----0------0----:
G:---2-----4----2----2----2----1------1----:
D:---4-----4----0----0----2----2------2----:
A:---4-----2--------------0----2------x----:
E:---2-------------------------0------4----:


The Picking Pattern:
This is the pattern in the 1st verse just as a little inspiration.
G#m G#m C#m C#m
|-----2-------2---|-----2-------2---|-----2-------2---|-----2-----2-----|
|-----2-------2---|-----2-------2---|-----3-------3---|-----3-----3-----|
|-----2-------2---|-----2-------2---|-----4-------4---|-----4-----4-----|
|-----4-------4---|-----4-------4---|-----4-----4-4---|-----4-----4-----|
|-----4-----4-4---|-----4-----4-4-0-|-2---2-0-2---2-0-|-2---2-0-2-2-2-4-|
|-2---2-0-2---2-0-|-2---2-0-2---2---|-----------------|-----------------|

E Em B F#
|-----2-------2---|-----1-------1---|-----------------|-----------------|
|-----3-------3---|-----3-------3---|-----2-------2---|-----------------|
|-----2-----2-2---|-----2-----2-2---|-----2-------2-0-|-1---------------|
|-0---0-0-0---0-0-|-0---0-0-0---0-0-|-----2-----2-2-0-|-2---------------|
|-----------------|-----------------|-0---0-0-0---0-0-|-2---------------|
|-----------------|-----------------|-----------------|-0---------------|



1st & 2nd Verse:
| G#m | G#m | C#m | C#m |

| E | Em | B | F# |


Chorus:
| G#m | C#m | F# | B F#/A# |

| G#m | C#m | F# | F# |


Interlude:
| G#m | G#m | G#m | G#m |


3rd & 4th Verse:
| G#m | G#m | C#m | C#m |

| E | E | B | F# |



Chorus

2x Interlude

Verse (similar to 1st verse)


Final Chorus:
||: G#m | C#m | F# | B F#/A# :||

| G#m | C#m | F# | F# |


Outro:
||: G#m | G#m | G#m | G#m :|| repeat till fade out





********************************************************************************

2. ______________
/ Jason Mraz /
/ Wordplay /
/_____________/

Chords:
G Cadd9 D Em7 Am7 Em D/F# Adim6 B C
e:---3-----3-----2----0-----0----0-------------------7----0---:
B:---3-----3-----3----3-----1----0-----3------10-----7----1---:
G:---0-----0-----2----0-----0----0-----2-------9-----8----0---:
D:---0-----2-----0----2-----2----2-----0------10-----9----2---:
A:---2-----3----------2-----0----2-----0-------9-----9----3---:
E:---3----------------0----------0-----2-------------7--------:

fill-1: fill-2:
[Em7] [C]
|-----------------| |-0---------------|
|-----------------| |-1---------------|
|-----------------| |-0---------------|
|-----------------| |-2---------------|
|---------2-------| |-3---2---0-------|
|-0---3---0-------| |-------------3---|



Intro:
| G | Cadd9 | D | D |

| G | Cadd9 | D | D |


Verse:
||: Em7 | G | Am7 | Am7 :|| x4

| fill-1 | G | Am7 | Am7 |



Chorus:
||: G | Cadd9 | D | D :|| x3

| Em | D/F# | Cadd9 | Cadd9 |



Interlude:
[break]
| G | Cadd9 | D | D |



Verse (break on G after fill-1)


Chorus + | Cadd9 | Cadd9 |



Bridge:
| Adim6 | Adim6 | B | B |

| Em | D | C | fill-2 |

| Adim6 | Adim6 | B | B | B | B |



Chorus (quiet, build up at the end)

Chorus, end on the first Cadd9





********************************************************************************

3. ____________________
/ Jason Mraz /
/ Geek in the Pink /
/___________________/

Chords:
Right below I've written some chords if you were to play the whole thing on
guitar. In the small tab chart in the right side I've indicated the chords
that the funky guitar actually plays in the song (it's out in the bridge though).

Bbm Gb Ebm7 Cm7b5 F Db Ab Fm Ab/C F/A
e:---1----2-------------------1--------------1------------1----:
B:---2----2-----7-------4-----1----6----4----1-----1------1----:
G:---3----3-----6-------3-----2----6----5----1-----1------2----:
D:---3----4-----8-------4-----3----6----6----3-----1------3----:
A:---1----4-----6-------3-----3----4----6----3-----3------0----:
E:--------2-------------------1---------4----1-----------------:


Intro: _E_A_D_G_B_E_
| Bbm | Bbm | Gb | Gb | | | | | | | | |
Bbm | x x x 6 6 6 |
| Ebm7 | Ebm7 | Cm7b5 | F | | |
Gb | x x x 6 7 6 |
| |
Verse: Ebm7 | x x x 8 7 6 |
||: Bbm | Bbm | Gb | Gb | | |
Cm7b5 | x x 4 5 4 x |
| Ebm7 | Ebm7 | Db | Ab :|| | |
F and F/A | x x 7 5 6 x |
| |
Chorus: Db | x x 6 6 6 x |
||: Bbm | Bbm | Gb | Gb | | |
Ab | x x 6 5 4 x |
1.,2. |_|_|_|_|_|_|_|
| Ebm7 | Ebm7 | Cm7b5 | F :||

3.
| Db | Ab |



Interlude (similar to intro)

Verse (similar to previous)

Chorus


Bridge:
| Gb | Gb | Bbm | Bbm |

| Fm | Fm | Bbm Ab/C | Db Ab |

| Gb | Gb | Bbm | Bbm |

| Cm7b5 | Cm7b5 | F | F |


Verse:
||: Bbm | Bbm | Gb | Gb |

| Ebm7 | Ebm7 | Db | Ab F/A :||


Chorus


Outro:
||: Bbm | Bbm | Gb | Gb |

| Ebm7 | Ebm7 | Db | F/A :|| ...end on Bbm





********************************************************************************

4. ___________________________
/ Jason Mraz /
/ Did You Get My Message? /
/ feat. Rachael Yamagata /
/__________________________/


Intro (verse): _E_A_D_G_B_E_
||: D#m | C#6 | G#/C | B A# :|| x4 | | | | | | | |
D#m | x 6 8 8 7 6 |
| |
Verse C#6 | x 4 6 6 6 6 |
| |
G#/C | x 3 6 5 4 x |
Pre-Chorus: | |
| G#m | G#m | C# | A#/D | B | x 2 4 4 4 x |
| |
| D#m | C# | G#/C | G#/C | A# | x 1 3 3 3 x |
| |
| G#m | G#m | C# | A#/D | G#m | 4 6 6 4 4 4 |
| |
C# | x 4 6 6 6 x |
Chorus: | |
| B | B F#/A# | G#m | C# | A#/D | x 5 8 7 6 x |
| |
| D#m | C# | G#/C | G#/C | F#/A# | x 1 4 3 2 x |
| |
| B | B F#/A# | G#m | C# | F# | 2 4 4 3 2 2 |
| |
Bm/D | x 5 4 4 3 x |
Verse |_|_|_|_|_|_|_|

Bridge:
||: F# | F# | B | Bm/D :||


Chorus


Guitar Interlude (½ verse):
D#m C#6 G#/C B A#
||-----------------------|-----------|----------------------|----------------||
||o----------------------|-----------|----------------------|---------------o||
||----------11-13--11h13~|~~-11------|---------11-13--11h13~|~~-11--13b15----||
||----11h13--------------|------13---|---11h13--------------|----------------||
||o----------------------|-----------|----------------------|---------------o||
||-----------------------|-----------|----------------------|----------------||


½ Verse

Pre-Chorus

Chorus

4x Bridge, end on Bm/D





********************************************************************************

5. _________________
/ Jason Mraz /
/ Mr. Curiosity /
/________________/

Capo on 3rd fret.
First is the actual chord name,
and below in brackets is the chord name without capo:

Bb Dm7 Fm Cm Ebm F Eb Gm D7 Gm9 Gb Fadd11
(G) (Bm7) (Dm) (Am) (Cm) (D) (C) (Em) (B7) (Em9) (D#) (Dadd11)
e:---3-----2----1----0-----3----2---0----0----2-----0------------------:
B:---0-----3----3----1-----4----3---1----0----0-----3----4------3------:
G:---0-----2----2----2-----5----2---0----0----2-----0----3------0------:
D:---0-----4----0----2-----5----0---2----2----1-----4----5------4------:
A:---2-----2---------0-----3--------3----2----2-----2----6------5------:
E:---3-----------------------------------0----------0------------------:



Intro (verse):
| Bb | Dm7 | Fm | Cm |

| Ebm | Bb | Cm | F |


2x Verse

Chorus:
| Eb | Bb | Dm7 | Gm F |

| Eb | Bb | D7 | D7 |


2x Verse

Chorus


Bridge:
| Gm9 | Gb | Gm9 | Gb |

| Ebm | Bb | Ebm | Fadd11 | Fadd11 |


1x Verse (opera)

2x Chorus, end on Gm9




Piano Intro arranged for Guitar (still capo on 3rd fret):
*******************************************************************************
* This is the link to my Guitar Pro version of it: *
* www.ultimate-guitar.com/tabs/j/jason_mraz/mr_curiosity_intro_guitar_pro.htm *
*******************************************************************************

Piano Intro arranged for Guitar (still capo on 3rd fret):
Bb Dm7 Fm Cm
|-----------3---2-|-----------------|-1-0------------0-|-----------------|
|-----0-----------|-------3---------|-----3------------|---3-1-----------|
|-0-2---0---------|-----4-2---------|-------2--(2)(2)--|-------2---------|
|---------0---0---|---4-------------|-0----------------|-----------------|
|-----------------|-2---------------|------------------|-0-----------2---|
|-3---------------|-----------------|------------------|-----------------|

Ebm Bb Cm F
|-3--------------3-|-----------------|-----------3---2-|-------10--------|
|---4-3------------|---3-------------|---------3-------|-----3-10--------|
|-------5----------|-----5-4---------|-2-4-5-----------|---2---11--------|
|----------(5)(5)--|-----------------|-------2---------|-0---------------|
|-3----------------|-----------------|-0-----------3---|-----------------|
|------------------|-3---------------|-----------------|-----------------|





********************************************************************************

6. _________________
/ Jason Mraz /
/ Clockwatching /
/________________/

In this song there are the figure/riff and a couple of chords.
The verses include both the riff and then the chords of the riff, just
casually picked. So I'll just write like 2x Riff, then pick the chords,
which I just notate in common bars. All the used chords can be seen
right below. The chords in the chorus are just regularly strummed.
It's really not complicated :)

Chords:
C D11(no7) Bmb6 G D Am7 Bbsus2 G/B Bb6sus2
e:---0------0--------------3---2----0------1----- -----------------:
B:---1------3--------3-----3---3----1------1----- ---3-------6-----:
G:---0------0--------0-----0---2----0------3----- ---0-------5-----:
D:---2------4--------4-----0---0----2------3----- ---0-------5-----:
A:---3------5--------2-----2--------0------1----- ---2-------x-----:
E:-------------------------3--------------------- -----------6-----:
(The last two chords are used live. The G/B is played instead
of the Bmb6 and the Bb6sus2 instead of the Bbsus2. I just
thought I'd spice things up with some alternatives here ;)


Riff:
C D11(no7) Bmb6 C
G |-----------------|-----------------|-----------------|-----------------|
U |-------1---------|-----3-----------|-------3---------|-----1-----------|
I |-----0-----0-----|---0-------------|-----0-----0-----|---0-------------|
T |-2-------------0-|-4---------------|-4-------------0-|-2---------------|
A |-----------------|-----------------|-----------------|-----------------|
R |-----------------|-----------------|-----------------|-----------------|
|
B |-5---------------|-7---7-----------|-----------------|-----------------|
A |-------5---------|---7-------------|-------4---------|-----------------|
S |-----------------|-----------------|-2---------------|-3---------------|
S |-----------------|-----------------|-----------------|-----3-----------|



Intro: 2x Riff


1st Verse: 2x Riff, then pick:

| C | D11(no7) | Bmb6 | C | C |



2nd Verse: 2x Riff, then pick:

| C | D11(no7) | Bmb6 | C |

| C | D11(no7) | Bmb6 | C |

| C | D11(no7) | G | G |



Chorus:
||: G | D | Am7 | Am7 :|| 3x

||: Bbsus2 | Am7 | G | G :|| 2x

| Bbsus2 | C | G | G |

| Bbsus2 | Am7 | Am7 | Am7 |



3rd Verse:
||: C | D11(no7) | Bmb6 | C :|| 4x

| C | D11(no7) | G | G |



Chorus:
||: G | D | Am7 | Am7 :|| x3

||: Bbsus2 | Am7 | G | G :|| x2

| Bbsus2 | C | G | G |

| Bbsus2 | Bbsus2 | Am7 | Am7 |

| Am7 | Am7 |



Interlude: 2x Riff


Bridge:
||: C | D11(no7) | Bmb6 | C :|| 5x



Outro:
| C | D11(no7) | Bmb6 | C |

| C | D11(no7) | Bmb6 | Am7...





********************************************************************************

7. ______________
/ Jason Mraz /
/ Bella Luna /
/_____________/

****************************************************************************
* I've also made a Guitar Pro version of the Guitar fills & solo. *
* This is the link to it: *
* www.ultimate-guitar.com/tabs/j/jason_mraz/bella_luna_solo_guitar_pro.htm *
****************************************************************************

Chords:
Am Am7 Bdim7 Fmaj7#11 E Am9 Bdim7/11 Dm9 Dm G C F E
e:---5----5-------------0------0-- --0-----0--------0-- --5---3-------1---0---:
B:---5----5-----3-------0------0-- --0-----3--------6-- --6---3---5---1---0---:
G:---5----5-----2-------2------1-- --5-----2--------5-- --7---4---5---2---1---:
D:---7----5-----3-------3------2-- --7-----3--------7-- --7---5---5---3---2---:
A:---7----7-----2----------------- --0-----2--------5-- --5---5---3---3---2---:
E:---5----5----------------------- -------------------- ------3-------1---0---:


Intro:
| Am | Am7 | Bdim7 | Bdim7 |

| Bdim7 | Fmaj7#11 E | Am | Am |

*Electric guitar fill
---------|-----------|-------------|--------------|--------------|
-1p0-----|-----------|-----1p0-----|--------------|--------------|
-----2-0-|-0h2~------|---------2-0-|-2s4----5---4-|-----4--5--7--|
---------|-----------|-------------|--------------|--------------|
---------|-----------|-------------|--------------|--------------|
---------|-----------|-------------|--------------|--------------|

|------------------|-----------------|-----------|------------|
|------------------|-----------------|-----------|------------|
|-(7)-4----4h5s10-|--------9--7--5h7|s9~~-------|-(9)-------|
|------------------|-----------------|-----------|------------|
|------------------|-----------------|-----------|------------|
|------------------|-----------------|-----------|------------|



Verse:
| Am9 | Am9 | Bdim7/11 | Bdim7/11 |

| Bdim7/11 | Bdim7/11 | Am9 | Am9 |

| Dm9 | Dm9 | Am9 | Am9 |

| Bdim7 | Bdim7 | E | E |



Interlude:
||: Am7 | Bdim7 | Fmaj7#11 | E :||

*Electric guitar fill
---------|-----------|-------------|--------------|--------------------|
-1p0-----|-----------|-----1p0-----|-5s6~-------5-|--------10--13--13--|
-----2-0-|-0h2~------|---------2-0-|--------------|-------9------------|
---------|-----------|-------------|--------------|------10------------|
---------|-----------|-------------|--------------|-----12-------------|
---------|-----------|-------------|--------------|--------------------|

|-------------------|---------------------|------------------|-------------|
|-13p12-12-12p10-10-|-10p8--8--8s6--6--5--|-6~-----6s8--5----|-----(5)----|
|-------------------|---------------------|------------------|-------------|
|-------------------|---------------------|------------------|-------------|
|-------------------|---------------------|------------------|-------------|
|-------------------|---------------------|------------------|-------------|



Verse


Pre-Chorus:
| Dm | G | C | F |

| Dm | Dm | E | E |



Interlude (chords similar to previous)

*Electric guitar fill
----12-12-|-12s10-10-10s8---8-|--8s7--7--7--7--7|s5----------------|----------|
-13-13-13-|-13s12-12-12s10-10-|-10s8--8--8--8--8|s6~~----5h6p5---5-|-5~-------|
----------|-------------------|-----------------|--------------7---|----------|
----------|-------------------|-----------------|------------------|----------|
----------|-------------------|-----------------|------------------|----------|
----------|-------------------|-----------------|------------------|----------|

|--------------------|----------------|------------------|-----------|
|--5h6p5---5---------|----------------|------------------|-----------|
|--------7---7-5-4---|--------------4-|-4s5------4-5s9---|-----------|
|------------------7-|-5--------6-7---|------------------|-----------|
|--------------------|---8------------|------------------|-----------|
|--------------------|----------------|------------------|-----------|



Verse


Chorus:
||: Am | Dm | G | C |

| F | Dm | E | E :||



Guitar Solo:
||: Am7 | Am7 | Bdim7/11 | Bdim7/11 |

| Bdim7/11 | Bdim7/11 | Am9 | Am9 :||

*Classical guitar solo
|--------------|--------------|-------------|--------------|
|----5-5-5-5-5-|--5--5--6--5--|-------------|------------5-|
|--------------|--------------|--7--------7-|--7-----------|
|--------------|--------------|-------------|--------------|
|--------------|--------------|-------------|--------------|
|--------------|--------------|-------------|--------------|

|----------------|------------------|--------------|---------------|
|----------------|------------------|--------------|-------5-5-5-6-|
|--7---7-7---7-7-|-----7--7--7h9--7-|---5-5s4--5---|---5-7---------|
|----------------|------------------|--------------|---------------|
|----------------|------------------|--------------|---------------|
|----------------|------------------|--------------|---------------|

|----------------|------7--8--10-10s12-|--12h13-12-10-10h12p10---|------------|
|-6h8-8-8s10--10-|---------------------|-------------------------|------------|
|----------------|---------------------|-------------------------|------4-5-7-|
|----------------|---------------------|-------------------------|------------|
|----------------|---------------------|-------------------------|------------|
|----------------|---------------------|-------------------------|------------|

|-----------------------|-----------5-7-8-|-7h8p7---5-----------|--------------|
|-5--5-----5--------5-6-|-8--8~-6-8-------|-------------8---6---|-5------------|
|-------7-----4-5-7-----|-----------------|---------------------|-----7---5---|
|-----------------------|-----------------|---------------------|--------------|
|-----------------------|-----------------|---------------------|--------------|
|-----------------------|-----------------|---------------------|--------------|



½ Verse:
| Dm | Dm | Am9 | Am9 |

| Bdim7/11 | Bdim7/11 | E | E |



Pre-Chorus

½ Chorus


Outro: (similar to Interlude), end on Am9

*Electric guitar fill
---------|-----------|-------------|---------------|--------------------|
-1p0-----|-----------|-----1p0-----|-5s6~---/8---5-|------------13--13--|
-----2-0-|-0h2~------|---------2-0-|---------------|---------9----------|
---------|-----------|-------------|---------------|-------10-----------|
---------|-----------|-------------|---------------|------12------------|
---------|-----------|-------------|---------------|--------------------|

|-------------------|---------------------|----------|------|------------|------
|-13-12-12-12-10-10-|-10-8--8--8s6--6--5--|-6~-------|-5---|-5----------|------
|-------------------|---------------------|----------|------|----7--5--4-|------
|-------------------|---------------------|----------|------|------------|-5t7--
|-------------------|---------------------|----------|------|------------|------
|-------------------|---------------------|----------|------|------------|------
|
| Fmaj7#11 E Am9
|----------|------|------------|-0^---
|-0--------|-0----|------------|-0^---
Rhythm |-2--------|-1----|------------|-5^---
Guitar > |-3--------|-2----|-2--0-------|-7^---
ending |----------|------|-------3--2-|-0^---
|----------|------|------------|------





********************************************************************************

8. ______________
/ Jason Mraz /
/ Plane /
/_____________/

Capo on 2nd fret.
First is the actual name of the chord,
and below in the brackets is the name of the chord without capo:

D#m F# B A#7 A# F#/C# Bmaj7
(C#m) (E) (A) (A7) (G#) (E/B) (Amaj7)
e:---4----0----5-----4----4------0-------0----:
B:---5----0----5-----4----4------0-------2----:
G:---6----1----6-----5----5------1-------1----:
D:---6----2----7-----4----6------2-------2----:
A:---4----2----7-----6----6------2-------0----:
E:--------0----5-----4----4-------------------:

Intro chords:
The first four chords are the piano chords on the album-version.
It's impossible transcribe the piano exactly for guitar, but this
is the best sounding way I could come up with.
The last two chords are the ones Jason plays around with as a
foreplay when playing it acoustic.

D#m(add11) F#(add9) Bmaj7(add13) A#7 D#m B(add9)
:-----0----------2-----------0---------4---- ---0------0----:
:-----7----------0-----------7---------7---- ---5------0----:
:-----6----------1-----------6---------5---- ---6------6----:
:-----6----------2-----------6---------4---- ---6------7----:
:-----4----------2-----------0---------6---- ---4------7----:
:----------------0---------------------4---- ----------5----:



Intro:
||: D#m(add11) | F#(add9) | Bmaj7(add13) | A#7 :||
(all the added notes are the same G#-note)


Verse:
||: D#m | F# | B | A#7 :|| x4


Chorus:
||: B | F# | A# | A# :|| x4


Verse

Chorus


Bridge:
||: D#m | F#/C# | Bmaj7 | Bmaj7 |

| D#m | F#/C# | B | A#7 :||


Verse

1½ Chorus

1½ Verse, end on D#m





********************************************************************************

9. ______________
/ Jason Mraz /
/ O. Lover /
/_____________/


Intro:
||: Dm(add9) | Dm(add9) | Bbmaj9 | Bbmaj9 :||


Verse:
||: Bm7 | Bm7 | Gm | F#m :|| x4
(break on F#m the second time)


Chorus:
| Em | F#m7 | Em | F#m7 |

| Em | F#m7 | Em | F#m7 |


Verse

Chorus

½ Intro

Verse

Chorus


Bridge:
||: Bm | C | G | A Bbdim :||


Interlude:
| Dm9 | Dm9 | Bb | Bb |

| Dm9 | Dm9 | Bb | Bb |

| Fmaj7 | Fmaj7 | A | Bbdim |


Outro:
||: Bm | Bm | Gm7 | F#m :|| x4

There are actually no chords played here. It's just the riff below,
played by the bass and vocals. This is the riff played on guitar
on a live-version I found:
Bm Bm Gm7 F#m
|-----------------|-----------------|-----------------|-----------------|
|-----------------|-----------------|-----------------|-----------------|
|-----------------|-----------------|-----------------|-----------------|
|-----------------|-----------------|---5-3-----------|---4-2-----------|
|---9-7---5-4-----|---9-7---5-4-----|---------7-5-----|---------5-4-----|
|-------------5-7-|-------------5-3-|-------------5-2-|-------------5-7-|



Guitar Chords:
Dm(add9) x 5 7 7 6 0
Bbmaj9 6 x x 5 6 5
or 6 x 5 5 6 8 (live variation)

Bm7 7 9 7 7 7 7
Gm 3 5 5 3 3 3
F#m 2 4 4 2 2 2

Em x 7 9 9 8 0
F#m7 x 9 11 11 10 0

Bm 7 9 9 7 7 7
C 8 10 10 9 8 8
G 3 5 5 4 3 3
A 5 7 7 6 5 5
Bbdim 6 7 8 9 x x

Dm9 x x 0 5 6 0
Bb 6 x x 5 6 0
Fmaj7 x x 7 5 6 0
A 5 7 7 6 x x
Bbdim 6 7 8 9 x x





********************************************************************************

10._________________________
/ Jason Mraz /
/ Please Don't Tell Her /
/________________________/

In this song there's basically just the main round, which makes up the
intro, the verse and the chorus with a couple of breaks, and then there
are the three pre-choruses. So instead of writing the same chords over
again, I've just written how many rounds long each part is, simple :)

The Main Round:
| E | C#m7 | G#m7 | A(add9) B(add11) |


Chords:
E C#m7 G#m7 A(add9) B(add11) F#m B7 G#m C#m B A F#
e:---0----0-------------0--------0----- -----------------------------------:
B:---0----0-----4-------0--------0----- ---2----4----4----5----4---2---2---:
G:---1----6-----4-------6--------8----- ---2----2----4----6----4---2---3---:
D:---2----6-----4-------7--------9----- ---4----4----6----6----4---2---4---:
A:---2----4-----x-------7--------9----- ---4----2----6----4----2---0---4---:
E:---0----------4-------5--------7----- ---2---------4-----------------2---:



Intro: 1 round, break on B(add11)

Verse: 2


Pre-Chorus:
| F#m | B7 | G#m | C#m |

| F#m | B7 | B7 |



Intro: 1

Verse: 2


Pre-Chorus:
| F#m | B7 | G#m | C#m B |

[break on 3]
| A | F# | F# |



Chorus: 2, break on the second B(add11)

Intro: 1

Verse: 2


Pre-Chorus:
| F#m | B7 | G#m | C#m |

| F#m | B7 | G#m | C#m B |

2/4 4/4
| A | F# | F# | break |



Chorus: 4, break on the first and fourth B(add11)

Outro: 1





********************************************************************************

11.________________
/ Jason Mraz /
/ The Forecast /
/_______________/


CHORDS:

Fmaj7 Ebmaj7 Dm7 Bb6(9) Ab6(9) Gm7 Gb6(9) Db Ab C F
----8------6------5------8----- --------------------- ------------------1----
---10------8------6------6----- ----4-----3-----2---- ---6----4----5----1----
----9------7------5------5----- ----3-----3-----1---- ---6----5----5----2----
---10------8------7------5----- ----3-----3-----1---- ---6----6----5----3----
----8------6------5------------ --------------------- ---8----6----7----3----
-------------------------6----- ----4-----3-----2---- --------4---------1----


-----------------------------------------------------------------------------



Intro: | Fmaj7 | Ebmaj7 | Dm7 | Bb6(9) |



Verse: ||: Fmaj7 | Bb6(9) :|| 4x



Chorus: | Ab6(9) | Gm7 Gb6(9) | Fmaj7 | Bb6(9) |

| Ab6(9) | Gm7 Gb6(9) |

| Fmaj7 | Bb6(9) | Fmaj7 | Bb6(9) |


Verse


Chorus


Bridge: | Db | Ab | C | F |

| Db | Ab | C | C |


2x Intro


Verse


Outro-Chorus: ||: Ab | Gm7 Gb6(9) | Fmaj7 | Bb6(9) :|| 4x

| Ab | Gm7 Gb6(9) ...



-----------------------------------------------------------------------------

LYRICS:

Well, I heard that it might be raining bed sheets and lover’s words
Let’s throw out the hotel comforter and hang the "do not disturb"
Sign me up for the storm
I’ll wear my suit for the shower
‘Cause I’ll have you to keep me warm in the coldest hour

And when the darkness falls under your hair, there I’ll be
And crazy is the forecast all week

Well, every kiss, every hug is so light on that touch, delicate like a snowflake
Well, I can taste, I can taste, I can taste, I can taste you all over my face
And everyone might find me foolish to not be counting on the sun
But your mouth is my umbrella now and I’m holding your tongue

And if the rain should fall, for sure, with you I’ll be
And crazy is the forecast all week

And there’s a good chance in hell
Like cats and dogs we’ll be flying
And I’m no weatherman
But you are lightning, striking

Here comes the sun and the rain
All at once down the sink

In the midst of the morning pull up a blanket of a cloud
And await for the warning of another come down
Because the water is healthy for the roses in your cheeks
My well holds plenty for penny wishing in your deep end

And when the lights go out, no doubt, with you I’ll be
And crazy is the forecast all week
And if the rain should fall, for sure, with you I’ll be
Because crazy is the forecast all week long
Crazy is the forecast




********************************************************************************

12._____________________
/ Song for a Friend /
/ Jason Mraz /
/____________________/

Chords:
(I've shorted the long chord names with a dot)
Bm(add11) F#m(add11)/A Em9/G Bm/E Bm/F# Em9 A7
e:-----0-------------2-----------0------------------- ---0----0----:
B:-----3-------------2-----------3------3-------3---- ---3----2----:
G:-----4-------------4-----------4------4-------4---- ---0----0----:
D:-----4-------------4-----------4------4-------4---- ---4----2----:
A:-----2-------------0-----------x------x-------x---- ---2----0----:
E:-------------------------------3------0-------2---- ---0---------:

Intro: (also verse/interlude)
||: Bm. | F#m./A | Em9/G | Bm/E Bm/F# :||


Verse


Chorus:
| Em9 | A7 | Bm. F#m./A | Em9/G |

| Em9 | A7 |


½x Interlude

Verse

Chorus

Interlude


Bridge:
| Em9 | A7 | Em9 | A7 |

| Em9 | A7 | Em9 | A7 |


Interlude

Verse

Chorus

4x Interlude

5x Interlude (quiet part)

4x Ending Verse (break down the last time, end on Bm.)




********************************************************************************

Jon Sebastian Frederiksen - 14th /March /09
Just mail me at Maitinin@gmail.com with question, comments, corrections!

********************************************************************************
* Links *
*********

1. Life is Wonderful:
www.ultimate-guitar.com/tabs/j/jason_mraz/life_is_wonderful_ver2_crd.htm

2. Wordplay:
www.ultimate-guitar.com/tabs/j/jason_mraz/wordplay_ver5_crd.htm

3. Geek in the Pink:
www.ultimate-guitar.com/tabs/j/jason_mraz/geek_in_the_pink_ver2_crd.htm

4. Did You Get My Message?:
www.ultimate-guitar.com/tabs/j/jason_mraz/did_you_get_my_message_ver3_crd.htm

5. Mr. Curiosity:
www.ultimate-guitar.com/tabs/j/jason_mraz/mr_curiosity_ver2_crd.htm
Piano intro + Guitar arrangement (Guitar Pro)
www.ultimate-guitar.com/tabs/j/jason_mraz/mr_curiosity_intro_guitar_pro.htm

6. Clockwatching:
www.ultimate-guitar.com/tabs/j/jason_mraz/clock_watching_ver3_crd.htm

7. Bella Luna:
www.ultimate-guitar.com/tabs/j/jason_mraz/bella_luna_ver3_crd.htm
Guitar fills & solo (Guitar Pro)
www.ultimate-guitar.com/tabs/j/jason_mraz/bella_luna_solo_guitar_pro.htm

8. Plane: (vocal track + chords, Guitar Pro)
www.ultimate-guitar.com/tabs/j/jason_mraz/plane_guitar_pro.htm

9. O. Lover:
www.ultimate-guitar.com/tabs/j/jason_mraz/o_lover_crd.htm

10. Please Don't Tell Her:
www.ultimate-guitar.com/tabs/j/jason_mraz/please_dont_tell_her_ver4_crd.htm

11. The Forecast:
www.ultimate-guitar.com/tabs/j/jason_mraz/the_forecast_crd.htm

12. Song for a Friend:
www.ultimate-guitar.com/tabs/j/jason_mraz/song_for_a_friend_crd.htm


Waiting for My Rocket to Come album:
www.ultimate-guitar.com/tabs/j/jason_mraz/waiting_for_my_rocket_to_come_album_crd.htm

Also

Songs New Favorites Chords Tuner