Song

Instrument

Chords

Transpose

				 LUDO
DRUNKEN LAMENT
Tabbed by Anthony "Rock" Arcuicci
myspace.com/rockwtf
rocktakesover at Gmail dot Com
www.toughguystakeover.com

E / Ab / C#m / A
E / C#m / Ab

e|---4--4--4--4--4--4--4--4--------------------------------------------------|
B|--5--5--5--5--5--5--5--5---------------------------------------------------|
G|-6--6--5--5--4--4--5--5----------------------------------------------------|
D|---------------------------------------------------------------------------|
A|---------------------------------------------------------------------------|
E|---------------------------------------------------------------------------|



VERSE

PM----------------------------------------------|
e|---------------------------------------------------------------------------|
B|-555555555555555555555555555555555555555555555555--------------------------|
G|-666666666666555555555555444444444444555555555555--------------------------|
D|---------------------------------------------------------------------------|
A|---------------------------------------------------------------------------|
E|---------------------------------------------------------------------------|

Self.... Loathing is quiant
You told me showing restraint

e|---------------------------------------------------------------------------|
B|-555555555555555555555555555555555555555555555555--------------------------|
G|-666666666666555555555555444444444444333333333333--------------------------|
D|---------------------------------------------------------------------------|
A|---------------------------------------------------------------------------|
E|---------------------------------------------------------------------------|

Now you're gone and I'm lost
In the Swells I am tossed
Bobbing and choking and losing the Fight in the Fog
You said

F#
Forever-Tell me you'll

A
Come back to stay

(oooh)

CHORUS
E Ab C#m
I'd ride in your pocket all day But
A E Ab C#m
I just don't fit, say the word and I'll change
A E
I'm throwing a party tonight I drink
Ab C#m A
more than a sailor I'm sure Pour the
E C#m Ab
rum in my eyes, tell me lies


e|---4--4--4--4--4--4--4--4--------------------------------------------------|
B|--5--5--5--5--5--5--5--5---------------------------------------------------|
G|-6--6--5--5--4--4--5--5----------------------------------------------------|
D|---------------------------------------------------------------------------|
A|---------------------------------------------------------------------------|
E|---------------------------------------------------------------------------|
Oh...

PM----------------------------------------------|
e|---------------------------------------------------------------------------|
B|-555555555555555555555555555555555555555555555555--------------------------|
G|-666666666666555555555555444444444444555555555555--------------------------|
D|---------------------------------------------------------------------------|
A|---------------------------------------------------------------------------|
E|---------------------------------------------------------------------------|
Drunk since Saturday
Without you, without restraint
(Ahhh)

e|---------------------------------------------------------------------------|
B|-555555555555555555555555555555555555555555555555--------------------------|
G|-666666666666555555555555444444444444333333333333--------------------------|
D|---------------------------------------------------------------------------|
A|---------------------------------------------------------------------------|
E|---------------------------------------------------------------------------|
It still stings where you stung
Water swings in my lungs
I'm starving for words that would ration my sadness away

F# A
Tell me forever Tell me you'll come back to stay

REPEAT CHORUS

C#m A E B
You were the mermaid for me
C#m A E B
Till one day, you found your feet Leaving
A Am
me In the God-awful bottle, a model of heartache and grief

REPEAT CHORUS


Also

Songs New Favorites Chords Tuner