CHORDS IN THIS SONG

ALPHABET

Our site needs your support.
Share a post about us with your friends

Х
			
			 
    Intro: AMaj7 C#m7 Bm7 AMaj7 

Verse 1:
AMaj7 C#m7
Dering telfonku membuatku tersenyum di pagi hari

Bm7 AMaj7 CMaj7-A#Maj7
Kau bercerita semalam kita bertemu dalam mimpi

AMaj7 C#m7
Entah mengapa aku merasakan hadirmu di sini


Bm7 AMaj7
Tawa candamu menghibur saat ku sendiri

Chorus:
DMaj7
Aku di sini dan kau di sana

C#m7
Hanya berjumpa via suara

Bm7 AMaj7
Namun ku s'lalu menunggu saat kita akan berjumpa

DMaj7
Meski kau kini jauh di sana

C#m7
Kita memandang langit yang sama

Bm7 AMaj7 Asus4 AMaj7
Jauh di mata namun dekat di hati

Verse 2:
AMaj7 C#m7
Dering telfonku membuatku tersenyum di pagi hari

Bm7 AMaj7
Tawa candamu menghibur saat ku sendiri

Chorus:
DMaj7
Aku di sini dan kau di sana

C#m7
Hanya berjumpa via suara

Bm7 AMaj7
Namun ku s'lalu menunggu saat kita akan berjumpa

DMaj7
Meski kau kini jauh di sana

C#m7
Kita memandang langit yang sama

Bm7 AMaj7 Asus4 AMaj7
Jauh di mata namun dekat di hati

Interlude:
DMaj7 C#m7 Bm7
e --------------------------------------12--------------------------|
B ------10--9s10-----------10-12--12s14--14s12-10-12-10--9s10-9-----|
G --9s11--------9--9-9-9-11-------------------------------------9---|
D ------------------------------------------------------11--------11|
A ------------------------------------------------------------------|
E ------------------------------------------------------------------|

A
e ------------------------------------------------------------------|
B -----------------10-12--12s14-14-12-12-10-10-12-12s14-------------|
G --9s11-11-11-9-11-------------------------------------------------|
D ------------------------------------------------------------------|
A ------------------------------------------------------------------|
E ------------------------------------------------------------------|

(violin solo)

overtone

Chorus:
DMaj7
Aku di sini dan kau di sana

C#m7
Hanya berjumpa via suara

Bm7 AMaj7
Namun ku s'lalu menunggu saat kita akan berjumpa

DMaj7
Meski kau kini jauh di sana

C#m7
Kita memandang langit yang sama

Bm7 AMaj7 Asus4 AMaj7
Jauh di mata namun dekat di hati

C#m7
Jarak dan waktu tak kan berarti

D#m7
Kar'na kau akan selalu di hati

Bm7 AMaj7
Bagai detak jantung yang kubawa kemanapun ku pergi

DMaj7
Meski kau kini jauh di sana

C#m7
Kita memandang langit yang sama

Bm7 AMaj7 Asus4 AMaj7
Jauh di mata namun dekat di hati

ALSO

UKULAND.COM
Songs New Favorites Chords Tuner
© 2020