CHORDS IN THIS SONG

ALPHABET
+1
[add-favorites] [/add-favorites] [del-favorites] [/del-favorites]
Х
			
			 
    --------------------------------------------------------------------------
Bleed to Love Her - Fleetwood Mac
--------------------------------------------------------------------------

Written by: Lindsey Buckingham
From: "The Dance" (1997) - live version
"Say You Will" (2003) - studio version

Tabbed by: maguri
Tuning: Standard

I tried to have the voicings from Buckingham's picking in a
chord version that one can flat-pick and I think it works out
surprisingly well.

I uploaded a quick demo of what this tab sounds like. You can listen
to it here: https://soundcloud.com/maguri/bleed-to-love-her-demo

--------------------------------------------------------------------------

Capo: 1st fret
Play: G
Key: Ab/G#

--------------------------------------------------------------------------

Whatever your strumming pattern may be, try to incorporate the following
changes into your accompaniment.

[Intro] / [Verse]
G Cadd+11 Dsus2
1 + 2 + 3 + 4 + 1 + 2 + 3 + 4 + 1 + 2 + 3 + 4 + 1 + 2 + 3 + 4 +
e|3---------3---3-|----------3---2-|----2-----2---0-|----0-----0-----|
B|0---------0---0-|----------0---1-|1---1-----1---3-|3---3-----3-----|
G|0---------0---0-|----------0---0-|0---0-----0-----|2---2-----2-----|
D|0---------------|----------------|----------------|0---------------|
A|----------------|----------------|3---------------|----------------|
E|3---------------|----------------|----------------|----------------|
G G/B Cadd9 D5
1 + 2 + 3 + 4 + 1 + 2 + 3 + 4 + 1 + 2 + 3 + 4 + 1 + 2 + 3 + 4 +
e|----------------|----------------|----------------|----------------|
B|3---------3-----|3-----3---3-----|3-----3---------|3-----3---3-----|
G|0---------0-----|0-----0---0-----|0-----0---------|2-----2---2-----|
D|0---------0-----|0-----0---0-----|2-----2---------|0---------------|
A|----------------|2---------------|3-----------2p0-|----------------|
E|3---------------|----------------|----------------|----------------|


[Chorus]
G Cmaj7 Dsus4
1 + 2 + 3 + 4 + 1 + 2 + 3 + 4 + 1 + 2 + 3 + 4 + 1 + 2 + 3 + 4 +
e|----------------|----------------|----------------|----------------|
B|----0---------0-|----0---------0-|----0---------0-|----------------|
G|0---0-----2---0-|----0-----2---0-|----0-----2---0-|0-----2---0-----|
D|0---------0-----|----------0-----|2---------2-----|0-------------0-|
A|----------------|----------------|3---------------|----------------|
E|3---------------|3---------------|----------------|----------------|
G Cmaj7 Dsus4
1 + 2 + 3 + 4 + 1 + 2 + 3 + 4 + 1 + 2 + 3 + 4 + 1 + 2 + 3 + 4 +
e|----------------|----------------|----------------|----------------|
B|----0---------0-|----0---------0-|----0---------0-|----------------|
G|0---0-----2---0-|----0-----2---0-|----0-----2---0-|0-----2---0-----|
D|0---------0-----|----------0-----|2---------2-----|0-------------0-|
A|----------------|----------------|3---------------|----------------|
E|3---------------|3---------------|----------------|----------------|
G Cmaj7 Dsus4
1 + 2 + 3 + 4 + 1 + 2 + 3 + 4 + 1 + 2 + 3 + 4 + 1 + 2 + 3 + 4 +
e|----------------|----------------|----------------|----------------|
B|----0---------0-|----0---------0-|----0---------0-|----------------|
G|0---0-----2---0-|----0-----2---0-|----0-----2---0-|0-----2---0-----|
D|0---------0-----|----------0-----|2---------2-----|0-------------0-|
A|----------------|----------------|3---------------|----------------|
E|3---------------|3---------------|----------------|----------------|
G Cmaj7 Dsus4
1 + 2 + 3 + 4 + 1 + 2 + 3 + 4 + 1 + 2 + 3 + 4 + 1 + 2 + 3 + 4 +
e|----------------|----------------|----------------|----------------|
B|----------------|----------------|----------0-----|----------------|
G|0---------0---0-|----0-----0---0-|0-----2---0-----|2-----2---0-----|
D|0---------0---0-|----0-----0---0-|2-----2---------|0-------------0-|
A|----------------|----------------|3---------------|----------------|
E|3---------------|3---------------|----------------|----------------|

--------------------------------------------------------------------------

CHORDS
E-A-D-G-B-e
G 3-x-0-0-0-3
Cadd+11 x-3-x-0-1-2
Dsus2 x-x-0-2-3-0
G* 3-x-0-0-3-x
G/B x-2-0-0-3-x
Cadd9 x-3-2-0-3-x
D5 x-x-0-2-3-x

Gmaj7/B x-2-0-0-3-2

--------------------------------------------------------------------------

[Intro]
| G | % | Cadd+11 | Dsus2 |
| G* | G/B | Cadd9 | D5 |

| G | % | Cadd+11 | Dsus2 |
| G* | G/B | Cadd9 | D5 |


[Verse]
G Cadd+11 Dsus2
Once again she steals away
G* G/B Cadd9 D5
Then she reaches out to kiss me
G Cadd+11 Dsus2
And how she takes my breath away
G* G/B Cadd9 D5
Pretending that she won't miss me


[Chorus]
G Cmaj7 Dsus4
Oh, oh, oh, oh - I would bleed to love her
G Cmaj7 Dsus4
Oh, oh, oh - Bleed to love her
G Cmaj7 Dsus4
Oh, oh, oh, oh - I would bleed to love her


[Interlude]
| G | % | Cmaj7 | Dsus4 |


[Verse]

G Cadd+11 Dsus2
And once again she calls to me
G* G/B Cadd9 D5
Then she vanishes in thin air
G Cadd+11 Dsus2
And how she takes my breath away
G* G/B Cadd9 D5
Pretending that she's not there


[Chorus]
G Cmaj7 Dsus4
Oh, oh, oh, oh - I would bleed to love her
G Cmaj7 Dsus4
Oh, oh, oh - Bleed to love her
G Cmaj7 Dsus4
Oh, oh, oh, oh - I would bleed to love her


[Interlude]
| G | % | Cmaj7 | Dsus4 |


[Middle 8]
G Gmaj7/B C D
Somebody's got to see this through
G Gmaj7/B C D
All the world is laughing at you
G Gmaj7/B C D
Somebody's got to sacrifice
G Gmaj7/B C D
If this whole thing's gonna turn out ri—ah-ah-ah-ah-ight


[Chorus]
G Cmaj7 Dsus4
Oh, oh, oh, oh - I would bleed to love her
G Cmaj7 Dsus4
Oh, oh, oh - Bleed to love her
G Cmaj7 Dsus4
Oh, oh, oh, oh - I would bleed to love her


[Outro]
| G | % | Cmaj7 | Dsus4 |
Bleed to love her
| G | % | Cmaj7 | Dsus4 |
Bleed to love her


Studio version:
| G | % | Cmaj7 | Dsus4 |
| G | % | Cmaj7 | Dsus4 |
(guitar solo, repeat and fade)


Live version:
| G | % | Cmaj7 | Dsus4 |
Oh, oh, oh
| G | % | Cmaj7 | Dsus4 |
Oh, no, oh
| G | % | Cmaj7 | Dsus4 |
Oh, oh, oh
| G | % | Cmaj7 | Dsus4 | G

ALSO

UKULAND.COM
Songs New Favorites Chords Tuner
© 2019