CHORDS IN THIS SONG

ALPHABET
Х
			
			 
    [Intro]

E|----------0~----------------------------0~--------------------|
B|-------------1-----------------------------1------------------|
G|-------0-------0----0h2---2-----------0------0---0h2---2------|
D|-----2-----------2------3---3~------2----------2-----3---3~---|
A|---3----------------------------0h3---------------------------|
E|--------------------------------------------------------------|


[Verse]

C F/A C F/A C F/A G
Blue jean baby, L.A. lady, seamstress for the band
C F/A C F/A C F/A G
Pretty eyed, pirate smile, you'll marry a music man
F Em7 Am7 Dm F Am G7
Ballerina, you must have seen her, dancing in the sand
C F/A C F/A C G
And now she's in me, always with me, tiny dancer in my hand


[Instrumental]

F - Em - Dm

E|----------0~----------------------------0~--------------------|
B|-------------1-----------------------------1------------------|
G|-------0-------0----0h2---2-----------0------0---0h2---2------|
D|-----2-----------2------3---3~------2----------2-----3---3~---|
A|---3----------------------------0h3---------------------------|
E|--------------------------------------------------------------|


[Verse]

C F/A C F/A C F/A G
Jesus freaks, out in the street, Handing tickets out for God
C F/A C F/A C F/A G
Turning back, she just laughs, The boulevard is not that bad
F Em7 Am7 Dm F Am G7
Piano man, he makes his stand, In the auditorium
C F/A C F/A C G
Looking on, she sings the songs, The words she knows the tune she hums


[Instrumental]

F - Em - Dm

E|----------0~----------------------------0~--------------------|
B|-------------1-----------------------------1------------------|
G|-------0-------0----0h2---2-----------0------0---0h2---2------|
D|-----2-----------2------3---3~------2----------2-----3---3~---|
A|---3----------------------------0h3---------------------------|
E|--------------------------------------------------------------|


[Bridge]

Ab Bb
But oh how it feels so real
Gm Cm
Lying here with no one near
Ab Bb
Only you and you can hear me
G
When I say softly slowly


[Chorus]

F C Dm
Hold me closer tiny dancer
F C G
Count the headlights on the highway
F C Dm
Lay me down in sheets of linen
F C G
you had a busy day today

F C Dm
Hold me closer tiny dancer
F C G
Count the headlights on the highway
F C Dm
Lay me down in sheets of linen
F C G
you had a busy day today


[Verse]

C F/A C F/A C F/A G
Blue jean baby, L.A. lady, seamstress for the band
C F/A C F/A C F/A G
Pretty eyed, pirate smile, you'll marry a music man
F Em7 Am7 Dm F Am G7
Ballerina, you must have seen her, dancing in the sand
C F/A C F/A C G
And now she's in me, always with me, tiny dancer in my hand


[Bridge]

Ab Bb
But oh how it feels so real
Gm Cm
Lying here with no one near
Ab Bb
Only you and you can hear me
G
When I say softly slowly


[Chorus]

F C Dm
Hold me closer tiny dancer
F C G
Count the headlights on the highway
F C Dm
Lay me down in sheets of linen
F C G
you had a busy day today

F C Dm
Hold me closer tiny dancer
F C G
Count the headlights on the highway
F C Dm
Lay me down in sheets of linen
F C G
you had a busy day today


[Outro]

E|----------0~----------------------------0~--------------------|
B|-------------1-----------------------------1------------------|
G|-------0-------0----0h2---2-----------0------0---0h2---2------|x4
D|-----2-----------2------3---3~------2----------2-----3---3~---|
A|---3----------------------------0h3---------------------------|
E|--------------------------------------------------------------|


****************************************************************
Chords Used:

Verse and Chorus
C F/A G F Em7 Am7 Dm G7 Em
|-----|-----|--3--|--1--|--0--|-----|--1--|--1--|--0--|
|--1--|--1--|--3--|--1--|--3--|--1--|--3--|--0--|--0--|
|--0--|--2--|--0--|--2--|--0--|--0--|--2--|--0--|--0--|
|--2--|--3--|--0--|--3--|--0--|--2--|--0--|--0--|--2--|
|--3--|--0--|--2--|--3--|--2--|--0--|-----|--2--|--2--|
|-----|-----|--3--|--1--|--0--|-----|-----|--3--|--0--|

Bridge
Ab Bb Gm Cm G
|--4--|--6--|--3--|-----|--3--|
|--4--|--6--|--3--|--4--|--3--|
|--5--|--7--|--3--|--5--|--0--|
|--6--|--8--|--5--|--5--|--0--|
|--6--|--8--|--5--|--3--|--2--|
|--4--|--6--|--3--|-----|--3--|

**************************************************************
| h Hummer-on
| ~ Vibrato
**************************************************************

ALSO

UKULAND.COM
Songs New Favorites Chords Tuner
© 2019