Song

Х

Instrument

Chords

Transpose

				 -------------------------------------------------------------------------------
A Stitch in Time - The Smashing Pumpkins
-------------------------------------------------------------------------------
Tabbed by: delaopm

*Capo - 5th fret

Chords used:
Am - x02210
C/G - 332010
D/F# - 2x023x
Asus2 - x02200
Cadd9 - x32030
G/B - x2003x
Em - 022000


*Strum chords all down
*Watch out for changes (*) to Am and C/G chords
*Repeat those changes anytime you see the Am - C/G - D/F# Asus2 chord progression

[Intro] - *Repeat 2 times
Am * C/G * D/F# Asus2
e|--0-0-0-0-0-0-0-0--0-0-0-0-0-0-0-0-------------------0-0-0-0-0-0-0-0-------|
B|--1-1-1-1-3-3-1-1--1-1-1-1-0-0-0-0--3-3-3-3-3-3-3-3--0-0-0-0-0-0-0-0-------|
G|o-2-2-2-2-2-2-2-2--0-0-0-0-0-0-0-0--2-2-2-2-2-2-2-2--2-2-2-2-2-2-2-2------o|
D|--2-2-2-2-2-2-2-2--2-2-2-2-2-2-2-2--0-0-0-0-0-0-0-0--2-2-2-2-2-2-2-2-------|
A|o-0-0-0-0-0-0-0-0--3-3-3-3-3-3-3-3--x-x-x-x-x-x-x-x--0-0-0-0-0-0-0-0------o|
E|-------------------3-3-3-3-3-3-3-3--2-2-2-2-2-2-2-2------------------------|
It’s
[Verse 1] - *Play like the intro
Am C/G
just a stitch in time, it's perfect I don't mind,
D/F# Asus2
sailing on your endless sea. You’re
Am C/G
perfect I don't mind, I got your stitch in mine,
D/F# Asus2
everywhere I wanna be. Don’t

[Pre - chorus]
Cadd9 G/B Em D/F#
say you want too much. They'll say you've had enough. Don’t
Cadd9 G/B D/F# Asus2
let them lay their trips on
Am C/G D/F# Asus2
you. There's somewhere I just gotta be.
Am C/G D/F# Asus2
There's somewhere I just gotta be.

[Chorus]
Cadd9 G/B
e|-2-2-0-2-3-2-0-2--2-2-0-2-3-2-0-0--0-0-0-0-------------|
B|-3-3-3-3-3-3-3-3--3-3-3-3-2-3-3-3--3-3-3-3--3-3-3-3----|
G|-0-0-0-0-0-0-0-0--0-0-0-0-0-0-0-0--0-0-0-0--0-0-0-0----|
D|-----------------------------------2-2-2-2--0-0-0-0----|
A|-----------------------------------3-3-3-3--2-2-2-2----|
E|-------------------------------------------------------|

e|-2-2-0-2-3-2-0-2--2-2-0-2-3-2-0-0--||
B|-3-3-3-3-3-3-3-3--3-3-3-3-2-3-3-3--||
G|-0-0-0-0-0-0-0-0--0-0-0-0-0-0-0-0--||
D|-----------------------------------||
A|-----------------------------------||
E|-----------------------------------||
You’re

Cadd9 G/B D/F# Asus2
everywhere at once and you can't break free.

e|-2-2-0-2-3-2-0-2--2-2-0-2-3-2-0-0--||
B|-3-3-3-3-3-3-3-3--3-3-3-3-2-3-3-3--||
G|-0-0-0-0-0-0-0-0--0-0-0-0-0-0-0-0--||
D|-----------------------------------||
A|-----------------------------------||
E|-----------------------------------||
You’re

Cadd9 G/B D/F# Asus2
everywhere at once and you can't break free. You’re
Cadd9 G/B D/F# Asus2
everywhere at once and you can't catch me, watch out.
Am C/G D/F# Asus2
There's somewhere I just gotta be.
Am C/G D/F# Asus2
It’s
[Verse 2]
Am C/G
just a stitch in time, we fit together fine, a
D/F# Asus2
puzzle looking for its piece. You’re
Am C/G
perfect, I don't mind, your travel makes you mine,
D/F# Asus2
everywhere I look, I see. Don’t

[Pre - chorus]
Cadd9 G/B Em D/F#
say you want too much. They'll say you've had enough. Don’t
Cadd9 G/B D/F# Asus2
let them lay their trips on
Am C/G D/F# Asus2
you. There's somewhere I just gotta be.
Am C/G D/F# Asus2
There's somewhere I just gotta be.

[Chorus]
Cadd9 G/B
e|-2-2-0-2-3-2-0-2--2-2-0-2-3-2-0-0--0-0-0-0-------------|
B|-3-3-3-3-3-3-3-3--3-3-3-3-2-3-3-3--3-3-3-3--3-3-3-3----|
G|-0-0-0-0-0-0-0-0--0-0-0-0-0-0-0-0--0-0-0-0--0-0-0-0----|
D|-----------------------------------2-2-2-2--0-0-0-0----|
A|-----------------------------------3-3-3-3--2-2-2-2----|
E|-------------------------------------------------------|

e|-2-2-0-2-3-2-0-2--2-2-0-2-3-2-0-0--||
B|-3-3-3-3-3-3-3-3--3-3-3-3-2-3-3-3--||
G|-0-0-0-0-0-0-0-0--0-0-0-0-0-0-0-0--||
D|-----------------------------------||
A|-----------------------------------||
E|-----------------------------------||
You’re

Cadd9 G/B D/F# Asus2
everywhere at once and you can't break free.

e|-2-2-0-2-3-2-0-2--2-2-0-2-3-2-0-0--||
B|-3-3-3-3-3-3-3-3--3-3-3-3-2-3-3-3--||
G|-0-0-0-0-0-0-0-0--0-0-0-0-0-0-0-0--||
D|-----------------------------------||
A|-----------------------------------||
E|-----------------------------------||
You’re

Cadd9 G/B D/F# Asus2
everywhere at once and you can't break free. You’re
Cadd9 G/B D/F# Asus2
everywhere at once and you can't catch me, watch out.
Am C/G D/F# Asus2
There's somewhere I just gotta be.
Am C/G D/F# Asus2
There's somewhere I just gotta be.
Am C/G D/F# Asus2
There's somewhere I just gotta be.
Am C/G D/F# Asus2
There's somewhere I just gotta be.

[Outro]
e|-2-2-0-2-3-2-0-2--2-2-0-2-3-2-0-0--|
B|-3-3-3-3-3-3-3-3--3-3-3-3-2-3-3-3--|
G|-0-0-0-0-0-0-0-0--0-0-0-0-0-0-0-0--|
D|-----------------------------------|
A|-----------------------------------|
E|-----------------------------------|

Cadd9 G/B D/F# Asus2 Cadd9 G/B D/F# Asus2
e|-0-0-0-0--------------------0-0-0-0--0-0-0-0--------------------0-------||
B|-3-3-3-3--3-3-3-3--3-3-3-3--0-0-0-0--3-3-3-3--3-3-3-3--3-3-3-3--0-------||
G|-0-0-0-0--0-0-0-0--2-2-2-2--2-2-2-2--0-0-0-0--0-0-0-0--2-2-2-2--2-------||
D|-2-2-2-2--0-0-0-0--0-0-0-0--2-2-2-2--2-2-2-2--0-0-0-0--0-0-0-0--2-------||
A|-3-3-3-3--2-2-2-2--x-x-x-x--0-0-0-0--3-3-3-3--2-2-2-2--x-x-x-x--0-------||
E|-------------------2-2-2-2-----------------------------2-2-2-2----------||

Also

Songs New Favorites Chords Tuner