CHORDS IN THIS SONG

ALPHABET
Х
			
			 
    A slightly higher version, chords a little handier, (version 1 is great check it out!)
capo 5
Am7 x02010 E7 022130 or 020100

intro
e|------------------------------------|
B|------------------------------------|
G|------------------------------------|
D|------------------------------------|
A|-0--3-0-5--0-3-0--0-3-0-5b(6)-5b(6)-|x4
E|------------------------------------|




Am C
Love, it will get you nowhere
G
You are on your own
D
Lost in the wild

Am
So come to me now
C
I could use some-one like you
G D
Someone who'll ki-ll on my command
Am
And ask no questions

Am Am7
(I'm gonna make you)
Am Am7
(I'm gonna break you)
Am Am7
(I'm gonna make you)
Am7
A fucking psycho


e|------------------------------------|
B|------------------------------------|
G|------------------------------------|
D|------------------------------------|
A|-0--3-0-5--0-3-0--0-3-0-5b(6)-5b(6)-|
E|------------------------------------|


e|-------------------------3-3--------|
B|-----------------------------1------|
G|------------------------------------|
D|------------------------------------|
A|-0--3-0-5--0-3-0--0-3-0-------------|
E|------------------------------------|


e|------------------------------------|
B|------------------------------------|
G|------------------------------------|
D|------------------------------------|
A|-0--3-0-5--0-3-0--0-3-0-5b(6)-5b(6)-|
E|------------------------------------|

e|------------------------------------|
B|------------------------------------|
G|------------------------------------|
D|------------------------------------|
A|-0--3-0-5--0-3-0--0-3-5-6-----------|
E|------------------------------------|

E Dm C E7
Your ass belongs to me no-o-o-o-o-ow, oh

Am
(interlude)

Am C
Your mind is just a program
G
and I'm a virus
D
I'm changing the station
Am
I'll improve your thresholds
C
I'll turn you into a su-per drone (a super drone)
G D
And you will ki-ll on my command
Am
I won't be responsible

Am Am7
(I'm gonna make you)
Am Am7
(I'm gonna break you)
Am Am7
(I'm gonna make you)
Am7
A fucking psycho

e|------------------------------------|
B|------------------------------------|
G|------------------------------------|
D|------------------------------------|
A|-0--3-0-5--0-3-0--0-3-0-5b(6)-5b(6)-|
E|------------------------------------|


e|-------------------------3-3--------|
B|-----------------------------1------|
G|------------------------------------|
D|------------------------------------|
A|-0--3-0-5--0-3-0--0-3-0-------------|
E|------------------------------------|


e|------------------------------------|
B|------------------------------------|
G|------------------------------------|
D|------------------------------------|
A|-0--3-0-5--0-3-0--0-3-0-5b(6)-5b(6)-|
E|------------------------------------|

e|------------------------------------|
B|------------------------------------|
G|------------------------------------|
D|------------------------------------|
A|-0--3-0-5--0-3-0--0-3-5-6-----------|
E|------------------------------------|
E Dm C E7
Your ass belongs to me no-o-o-o-o-ow, oh

Am
( interlude)

Am Am7
(I'm gonna make you)
Am Am7
(I'm gonna break you)
Am Am7
(I'm gonna make you)
Am7
A fucking psycho

same as earlier
D|------------------------------------|
A|-0--3-0-5--0-3-0--0-3-0-5b(6)-5b(6)-|
E|------------------------------------|

e|-------------------------3-3--------|
B|-----------------------------1------|
G|------------------------------------|
D|------------------------------------|
A|-0--3-0-5--0-3-0--0-3-0-------------|
E|------------------------------------|


D|------------------------------------|
A|-0--3-0-5--0-3-0--0-3-0-5b(6)-5b(6)-|
E|------------------------------------|

D|------------------------------------|
A|-0--3-0-5--0-3-0--0-3-5-6-----------|
E|------------------------------------|


E Dm C E7
Your ass belongs to me no-o-o-o-o-ow, oh

Am

E Dm
Your ass belongs to me now
E Dm C E7
Your ass belongs to me no-o-o-o-o-ow,

ALSO

UKULAND.COM
Songs New Favorites Chords Tuner
© 2019