Song

Х

Instrument

Chords

Transpose

				 It's Too Late - Shannon and the Clams (Gone by the Dawn, 2015)

Chords:

D Em A G E
e|---5--------7--------5--------3--------7---|
B|---7--------8--------5--------3--------9---|
G|---7--------9--------6--------4--------9---|
D|---7--------9--------7--------5--------9---|
A|---5--------7--------7--------5--------7---|
E|---------------------5--------3------------|

Intro/Riff:

D D D D
e|---------5--5----------5--5----------5--5---------5--5------|
B|---------7--7----------7--7----------7--7---------7--7------|
G|---------7--7----------7--7----------7--7---------7--7------|
D|---------7--7----------7--7----------7--7---------7--7------|
A|---------5--5----------5--5----------5--5---------5--5------|
E|---5--7----------5--7----------5--7---------5--7------------|

D
Darlin' It's too late
Em
For a phone call
A
I don't wanna wake you
D
I just let it ring twice
D
And its too late
Em
For me to come over
A
I get in the car
D
But I never drive

Solo (play verse chords once for the short solo here)


G
Well your new man
D
Hope he's nothing like me
G
Cast a wicked spell
E A
And you'll come running to me


D D D D

D
Darlin' It's too late
Em
To make it right
A
I had my chance
D
But I didn't try
D
Darlin' It's too late
Em
Im barely awake
A
I remember your body
D
And I start to die


G
Well your new man
D
Hope he's nothing like me
G
Cast a wicked spell
E A
And you'll come running to me


D D
Darlin' it's too late
D D
Darlin' it's too late
D
It's too late

Also

Songs New Favorites Chords Tuner